ISO-10303-21;
HEADER;
FILE_DESCRIPTION (( 'STEP AP203' ),
    '1' );
FILE_NAME ('BK7-LNPBSP-25.4-532.STEP',
    '2020-12-22T04:12:11',
    ( '' ),
    ( '' ),
    'SwSTEP 2.0',
    'SolidWorks 2020',
    '' );
FILE_SCHEMA (( 'CONFIG_CONTROL_DESIGN' ));
ENDSEC;

DATA;
#1 = APPROVAL_STATUS ( 'not_yet_approved' ) ;
#2 = PERSON_AND_ORGANIZATION_ROLE ( 'creator' ) ;
#3 = CARTESIAN_POINT ( 'NONE',  ( -1.187907395172932594E-15, 0.000000000000000000, 0.000000000000000000 ) ) ;
#4 = APPROVAL ( #31, 'UNSPECIFIED' ) ;
#5 = PERSON_AND_ORGANIZATION_ROLE ( 'design_supplier' ) ;
#6 = LOCAL_TIME ( 12, 12, 11.00000000000000000, #51 ) ;
#7 = AXIS2_PLACEMENT_3D ( 'NONE', #129, #60, #70 ) ;
#8 = CC_DESIGN_PERSON_AND_ORGANIZATION_ASSIGNMENT ( #158, #2, ( #175 ) ) ;
#9 = DIRECTION ( 'NONE',  ( 0.000000000000000000, 0.000000000000000000, 1.000000000000000000 ) ) ;
#10 = DIRECTION ( 'NONE',  ( 0.000000000000000000, 0.000000000000000000, 1.000000000000000000 ) ) ;
#11 = AXIS2_PLACEMENT_3D ( 'NONE', #72, #35, #15 ) ;
#12 = PERSON_AND_ORGANIZATION_ROLE ( 'design_owner' ) ;
#13 = ORIENTED_EDGE ( 'NONE', *, *, #79, .F. ) ;
#14 = APPROVAL_ROLE ( '' ) ;
#15 = DIRECTION ( 'NONE',  ( -0.000000000000000000, 0.000000000000000000, 1.000000000000000000 ) ) ;
#16 = DATE_TIME_ROLE ( 'classification_date' ) ;
#17 = PERSON ( 'UNSPECIFIED', 'UNSPECIFIED', 'UNSPECIFIED', ('UNSPECIFIED'), ('UNSPECIFIED'), ('UNSPECIFIED') ) ;
#18 = CARTESIAN_POINT ( 'NONE',  ( 2.999999999999998224, 1.555301434917138433E-15, -12.69999999999999929 ) ) ;
#19 = AXIS2_PLACEMENT_3D ( 'NONE', #3, #89, #87 ) ;
#20 = ORGANIZATION ( 'UNSPECIFIED', 'UNSPECIFIED', '' ) ;
#21 = CC_DESIGN_PERSON_AND_ORGANIZATION_ASSIGNMENT ( #97, #137, ( #74 ) ) ;
#22 = PERSON_AND_ORGANIZATION ( #17, #20 ) ;
#23 = CC_DESIGN_DATE_AND_TIME_ASSIGNMENT ( #99, #16, ( #48 ) ) ;
#24 = ADVANCED_FACE ( 'NONE', ( #77 ), #152, .T. ) ;
#25 = PRODUCT ( 'BK7-LNPBSP-25.4-532', 'BK7-LNPBSP-25.4-532', '', ( #69 ) ) ;
#26 = LOCAL_TIME ( 12, 12, 11.00000000000000000, #165 ) ;
#27 =( LENGTH_UNIT ( ) NAMED_UNIT ( * ) SI_UNIT ( .MILLI., .METRE. ) );
#28 = VERTEX_POINT ( 'NONE', #56 ) ;
#29 = DATE_AND_TIME ( #47, #26 ) ;
#30 = PERSON_AND_ORGANIZATION ( #17, #20 ) ;
#31 = APPROVAL_STATUS ( 'not_yet_approved' ) ;
#32 = ORIENTED_EDGE ( 'NONE', *, *, #120, .T. ) ;
#33 = DIRECTION ( 'NONE',  ( -1.000000000000000000, -0.000000000000000000, -0.000000000000000000 ) ) ;
#34 = COORDINATED_UNIVERSAL_TIME_OFFSET ( 8, 0, .AHEAD. ) ;
#35 = DIRECTION ( 'NONE',  ( -1.000000000000000000, 0.000000000000000000, -0.000000000000000000 ) ) ;
#36 = CALENDAR_DATE ( 2020, 22, 12 ) ;
#37 = DIRECTION ( 'NONE',  ( 1.000000000000000000, 0.000000000000000000, 0.000000000000000000 ) ) ;
#38 = APPROVAL ( #1, 'UNSPECIFIED' ) ;
#39 = CC_DESIGN_DATE_AND_TIME_ASSIGNMENT ( #104, #149, ( #74 ) ) ;
#40 = EDGE_CURVE ( 'NONE', #147, #28, #67, .T. ) ;
#41 = CIRCLE ( 'NONE', #7, 12.69999999999999929 ) ;
#42 = APPROVAL_PERSON_ORGANIZATION ( #43, #139, #122 ) ;
#43 = PERSON_AND_ORGANIZATION ( #17, #20 ) ;
#44 = CARTESIAN_POINT ( 'NONE',  ( -5.939536975864662969E-16, 12.69999999999999929, 0.000000000000000000 ) ) ;
#45 = APPROVAL_STATUS ( 'not_yet_approved' ) ;
#46 = ORIENTED_EDGE ( 'NONE', *, *, #146, .T. ) ;
#47 = CALENDAR_DATE ( 2020, 22, 12 ) ;
#48 = SECURITY_CLASSIFICATION ( '', '', #113 ) ;
#49 = DIRECTION ( 'NONE',  ( -1.000000000000000000, -0.000000000000000000, -0.000000000000000000 ) ) ;
#50 = SHAPE_DEFINITION_REPRESENTATION ( #170, #82 ) ;
#51 = COORDINATED_UNIVERSAL_TIME_OFFSET ( 8, 0, .AHEAD. ) ;
#52 = UNCERTAINTY_MEASURE_WITH_UNIT (LENGTH_MEASURE( 1.000000000000000082E-05 ), #27, 'distance_accuracy_value', 'NONE');
#53 =( GEOMETRIC_REPRESENTATION_CONTEXT ( 3 ) GLOBAL_UNCERTAINTY_ASSIGNED_CONTEXT ( ( #52 ) ) GLOBAL_UNIT_ASSIGNED_CONTEXT ( ( #27, #101, #85 ) ) REPRESENTATION_CONTEXT ( 'NONE', 'WORKASPACE' ) );
#54 = VECTOR ( 'NONE', #33, 1000.000000000000000 ) ;
#55 = ORIENTED_EDGE ( 'NONE', *, *, #84, .F. ) ;
#56 = CARTESIAN_POINT ( 'NONE',  ( -1.187907395172932594E-15, 0.000000000000000000, 12.69999999999999929 ) ) ;
#57 = VERTEX_POINT ( 'NONE', #66 ) ;
#58 = ORIENTED_EDGE ( 'NONE', *, *, #120, .F. ) ;
#59 = DATE_AND_TIME ( #88, #125 ) ;
#60 = DIRECTION ( 'NONE',  ( -1.000000000000000000, -0.000000000000000000, -0.000000000000000000 ) ) ;
#61 = PERSON_AND_ORGANIZATION ( #17, #20 ) ;
#62 = PERSON_AND_ORGANIZATION_ROLE ( 'classification_officer' ) ;
#63 = CC_DESIGN_PERSON_AND_ORGANIZATION_ASSIGNMENT ( #164, #12, ( #25 ) ) ;
#64 = APPROVAL_PERSON_ORGANIZATION ( #30, #4, #14 ) ;
#65 = FACE_OUTER_BOUND ( 'NONE', #109, .T. ) ;
#66 = CARTESIAN_POINT ( 'NONE',  ( -1.187907395172932594E-15, 1.555301434917138433E-15, -12.69999999999999929 ) ) ;
#67 = LINE ( 'NONE', #151, #54 ) ;
#68 = ORIENTED_EDGE ( 'NONE', *, *, #84, .T. ) ;
#69 = MECHANICAL_CONTEXT ( 'NONE', #111, 'mechanical' ) ;
#70 = DIRECTION ( 'NONE',  ( 0.000000000000000000, 0.000000000000000000, 1.000000000000000000 ) ) ;
#71 = APPROVAL_DATE_TIME ( #117, #4 ) ;
#72 = CARTESIAN_POINT ( 'NONE',  ( 2.999999999999999112, 12.69999999999999929, 0.000000000000000000 ) ) ;
#73 = APPROVAL_ROLE ( '' ) ;
#74 = PRODUCT_DEFINITION ( 'UNKNOWN', '', #175, #100 ) ;
#75 = CC_DESIGN_APPROVAL ( #4, ( #175 ) ) ;
#76 = PRODUCT_RELATED_PRODUCT_CATEGORY ( 'detail', '', ( #25 ) ) ;
#77 = FACE_OUTER_BOUND ( 'NONE', #136, .T. ) ;
#78 = LOCAL_TIME ( 12, 12, 11.00000000000000000, #34 ) ;
#79 = EDGE_CURVE ( 'NONE', #57, #28, #153, .T. ) ;
#80 = ORIENTED_EDGE ( 'NONE', *, *, #144, .F. ) ;
#81 = CARTESIAN_POINT ( 'NONE',  ( 0.000000000000000000, 0.000000000000000000, 0.000000000000000000 ) ) ;
#82 = ADVANCED_BREP_SHAPE_REPRESENTATION ( 'BK7-LNPBSP-25.4-532', ( #131, #134 ), #53 ) ;
#83 = AXIS2_PLACEMENT_3D ( 'NONE', #142, #132, #9 ) ;
#84 = EDGE_CURVE ( 'NONE', #126, #57, #96, .T. ) ;
#85 =( NAMED_UNIT ( * ) SI_UNIT ( $, .STERADIAN. ) SOLID_ANGLE_UNIT ( ) );
#86 = DIRECTION ( 'NONE',  ( -1.000000000000000000, -0.000000000000000000, -0.000000000000000000 ) ) ;
#87 = DIRECTION ( 'NONE',  ( 0.000000000000000000, 0.000000000000000000, 1.000000000000000000 ) ) ;
#88 = CALENDAR_DATE ( 2020, 22, 12 ) ;
#89 = DIRECTION ( 'NONE',  ( -1.000000000000000000, -0.000000000000000000, -0.000000000000000000 ) ) ;
#90 = AXIS2_PLACEMENT_3D ( 'NONE', #44, #37, #118 ) ;
#91 = VECTOR ( 'NONE', #173, 1000.000000000000000 ) ;
#92 = CC_DESIGN_PERSON_AND_ORGANIZATION_ASSIGNMENT ( #61, #5, ( #175 ) ) ;
#93 = ORIENTED_EDGE ( 'NONE', *, *, #144, .T. ) ;
#94 = ORIENTED_EDGE ( 'NONE', *, *, #146, .F. ) ;
#95 = CIRCLE ( 'NONE', #19, 12.69999999999999929 ) ;
#96 = LINE ( 'NONE', #108, #91 ) ;
#97 = PERSON_AND_ORGANIZATION ( #17, #20 ) ;
#98 = PLANE ( 'NONE',  #11 ) ;
#99 = DATE_AND_TIME ( #36, #6 ) ;
#100 = DESIGN_CONTEXT ( 'detailed design', #157, 'design' ) ;
#101 =( NAMED_UNIT ( * ) PLANE_ANGLE_UNIT ( ) SI_UNIT ( $, .RADIAN. ) );
#102 = ORIENTED_EDGE ( 'NONE', *, *, #40, .T. ) ;
#103 = ADVANCED_FACE ( 'NONE', ( #65 ), #163, .F. ) ;
#104 = DATE_AND_TIME ( #150, #143 ) ;
#105 = CARTESIAN_POINT ( 'NONE',  ( -1.187907395172932594E-15, 0.000000000000000000, 0.000000000000000000 ) ) ;
#106 = CIRCLE ( 'NONE', #112, 12.69999999999999929 ) ;
#107 = DIRECTION ( 'NONE',  ( 1.000000000000000000, 0.000000000000000000, 0.000000000000000000 ) ) ;
#108 = CARTESIAN_POINT ( 'NONE',  ( 0.000000000000000000, 1.555301434917138433E-15, -12.69999999999999929 ) ) ;
#109 = EDGE_LOOP ( 'NONE', ( #32, #124 ) ) ;
#110 = CARTESIAN_POINT ( 'NONE',  ( 2.999999999999998224, 0.000000000000000000, 0.000000000000000000 ) ) ;
#111 = APPLICATION_CONTEXT ( 'configuration controlled 3d designs of mechanical parts and assemblies' ) ;
#112 = AXIS2_PLACEMENT_3D ( 'NONE', #110, #49, #128 ) ;
#113 = SECURITY_CLASSIFICATION_LEVEL ( 'unclassified' ) ;
#114 = FACE_OUTER_BOUND ( 'NONE', #123, .T. ) ;
#115 = CYLINDRICAL_SURFACE ( 'NONE', #83, 12.69999999999999929 ) ;
#116 = ADVANCED_FACE ( 'NONE', ( #114 ), #98, .F. ) ;
#117 = DATE_AND_TIME ( #130, #78 ) ;
#118 = DIRECTION ( 'NONE',  ( 0.000000000000000000, 0.000000000000000000, -1.000000000000000000 ) ) ;
#119 = CC_DESIGN_PERSON_AND_ORGANIZATION_ASSIGNMENT ( #169, #62, ( #48 ) ) ;
#120 = EDGE_CURVE ( 'NONE', #28, #57, #95, .T. ) ;
#121 = EDGE_LOOP ( 'NONE', ( #93, #68, #58, #172 ) ) ;
#122 = APPROVAL_ROLE ( '' ) ;
#123 = EDGE_LOOP ( 'NONE', ( #80, #94 ) ) ;
#124 = ORIENTED_EDGE ( 'NONE', *, *, #79, .T. ) ;
#125 = LOCAL_TIME ( 12, 12, 11.00000000000000000, #127 ) ;
#126 = VERTEX_POINT ( 'NONE', #18 ) ;
#127 = COORDINATED_UNIVERSAL_TIME_OFFSET ( 8, 0, .AHEAD. ) ;
#128 = DIRECTION ( 'NONE',  ( 0.000000000000000000, 0.000000000000000000, 1.000000000000000000 ) ) ;
#129 = CARTESIAN_POINT ( 'NONE',  ( 2.999999999999998224, 0.000000000000000000, 0.000000000000000000 ) ) ;
#130 = CALENDAR_DATE ( 2020, 22, 12 ) ;
#131 = MANIFOLD_SOLID_BREP ( 'Ðý×', #140 ) ;
#132 = DIRECTION ( 'NONE',  ( -1.000000000000000000, -0.000000000000000000, -0.000000000000000000 ) ) ;
#133 = CARTESIAN_POINT ( 'NONE',  ( 0.000000000000000000, 0.000000000000000000, 0.000000000000000000 ) ) ;
#134 = AXIS2_PLACEMENT_3D ( 'NONE', #81, #162, #107 ) ;
#135 = APPROVAL_DATE_TIME ( #29, #139 ) ;
#136 = EDGE_LOOP ( 'NONE', ( #55, #46, #102, #13 ) ) ;
#137 = PERSON_AND_ORGANIZATION_ROLE ( 'creator' ) ;
#138 = DIRECTION ( 'NONE',  ( 0.000000000000000000, 0.000000000000000000, 1.000000000000000000 ) ) ;
#139 = APPROVAL ( #45, 'UNSPECIFIED' ) ;
#140 = CLOSED_SHELL ( 'NONE', ( #155, #24, #116, #103 ) ) ;
#141 = CC_DESIGN_SECURITY_CLASSIFICATION ( #48, ( #175 ) ) ;
#142 = CARTESIAN_POINT ( 'NONE',  ( 0.000000000000000000, 0.000000000000000000, 0.000000000000000000 ) ) ;
#143 = LOCAL_TIME ( 12, 12, 11.00000000000000000, #156 ) ;
#144 = EDGE_CURVE ( 'NONE', #147, #126, #41, .T. ) ;
#145 = APPROVAL_PERSON_ORGANIZATION ( #22, #38, #73 ) ;
#146 = EDGE_CURVE ( 'NONE', #126, #147, #106, .T. ) ;
#147 = VERTEX_POINT ( 'NONE', #168 ) ;
#148 = APPLICATION_PROTOCOL_DEFINITION ( 'international standard', 'config_control_design', 1994, #157 ) ;
#149 = DATE_TIME_ROLE ( 'creation_date' ) ;
#150 = CALENDAR_DATE ( 2020, 22, 12 ) ;
#151 = CARTESIAN_POINT ( 'NONE',  ( 0.000000000000000000, 0.000000000000000000, 12.69999999999999929 ) ) ;
#152 = CYLINDRICAL_SURFACE ( 'NONE', #171, 12.69999999999999929 ) ;
#153 = CIRCLE ( 'NONE', #161, 12.69999999999999929 ) ;
#154 = CC_DESIGN_APPROVAL ( #139, ( #74 ) ) ;
#155 = ADVANCED_FACE ( 'NONE', ( #166 ), #115, .T. ) ;
#156 = COORDINATED_UNIVERSAL_TIME_OFFSET ( 8, 0, .AHEAD. ) ;
#157 = APPLICATION_CONTEXT ( 'configuration controlled 3d designs of mechanical parts and assemblies' ) ;
#158 = PERSON_AND_ORGANIZATION ( #17, #20 ) ;
#159 = CC_DESIGN_APPROVAL ( #38, ( #48 ) ) ;
#160 = APPLICATION_PROTOCOL_DEFINITION ( 'international standard', 'config_control_design', 1994, #111 ) ;
#161 = AXIS2_PLACEMENT_3D ( 'NONE', #105, #86, #10 ) ;
#162 = DIRECTION ( 'NONE',  ( 0.000000000000000000, 0.000000000000000000, 1.000000000000000000 ) ) ;
#163 = PLANE ( 'NONE',  #90 ) ;
#164 = PERSON_AND_ORGANIZATION ( #17, #20 ) ;
#165 = COORDINATED_UNIVERSAL_TIME_OFFSET ( 8, 0, .AHEAD. ) ;
#166 = FACE_OUTER_BOUND ( 'NONE', #121, .T. ) ;
#167 = APPROVAL_DATE_TIME ( #59, #38 ) ;
#168 = CARTESIAN_POINT ( 'NONE',  ( 2.999999999999998224, 0.000000000000000000, 12.69999999999999929 ) ) ;
#169 = PERSON_AND_ORGANIZATION ( #17, #20 ) ;
#170 = PRODUCT_DEFINITION_SHAPE ( 'NONE', 'NONE',  #74 ) ;
#171 = AXIS2_PLACEMENT_3D ( 'NONE', #133, #174, #138 ) ;
#172 = ORIENTED_EDGE ( 'NONE', *, *, #40, .F. ) ;
#173 = DIRECTION ( 'NONE',  ( -1.000000000000000000, -0.000000000000000000, -0.000000000000000000 ) ) ;
#174 = DIRECTION ( 'NONE',  ( -1.000000000000000000, -0.000000000000000000, -0.000000000000000000 ) ) ;
#175 = PRODUCT_DEFINITION_FORMATION_WITH_SPECIFIED_SOURCE ( 'ANY', '', #25, .NOT_KNOWN. ) ;
ENDSEC;
END-ISO-10303-21;
